(1 Оценка, среднее 4.00 из 5)

Табулатура на песню WASP - I Dont Need No Doctor (WASP - I Dont Need No Doctor Tab)

Гитарная Табулатура на песню WASP - I Dont Need No Doctor к сожалению доступна только в текстовом виде,  песня WASP - I Dont Need No Doctor играется в строе EBGDAE:

Основной риф  x4
e------------------------------|
B------------------------------|
G-------------------------------|
D--2----5----7----7p-5b-------|
A--2----5----7----------------|
E--0----3----5----------------|

verse 1
RIFF 1

e------------------------------------------------------------|
B------------------------------------------------------------|
G------------------------------------------------------------|
D--------------------------------5-7-------------------------|
A--------------------------------5-7-------------------------|
E--0-0-0-0...-----------...0-0-0-3-5-0-0-0...-------...0-0-0-|
(a lot)
I don't need no doctor...

e------------------------------------------------------------|
B------------------------------------------------------------|
G------------------------------------------------------------|
D--------------------------------2----5----7----7p-5b--------|
A--------------------------------2----5----7-----------------|
E-----------------------...0-0-0-0----3----5-----------------|

A5 C5 D5
e-------------------------------------------------------------|
B-------------------------------------------------------------|
G-------------------------2---------------------5-7----------|
D--2----5----7----7p-5b---2---------------------5-7---------|
A--2----5----7------------0-0-0-0...---...0-0-0-3-5-0-0-0...-|
E--0----3----5-----------------------------------------------|

e------------------------------------------------------------|
B------------------------------------------------------------|
G------------------------------------------------------------|
D--------------------------------2----5----7----7p-5b--------|
A-----------------------...0-0-0-2----5----7-----------------|
E--------------------------------0----3----5-----------------|

end verse 1
END RIFF1
A B
e------------------------------------------------------------|
B------------------------------------------------------------|
G------------------------2-4-2-4-2-4-----------------7-------|
D--2----5----7----7p-5b--2-4-2-4-2-4----------7-9-7-9-9-7----|
A--2----5----7-----------------------------------------------|
E--0----3----5-----------------------------------------------|
... All i need is my baby...

MAIN RIFF x2 (играется с гитарной примочкой  хорус)

RIFF 1 - verse 2

MAIN RIFF x4 (играется с гитарной примочкой  хорус)

verse 3
RIFF 2 x4 END RIFF 2
e------------------------------------------|
B------------------------------------------|
G-----------------------------------2---2--|
D-----------------------------------2---2--|
A-----------------------------------0---0--|
E-0-0-0...-----------------...0-0-0--------|
Well the doctor said i need rest- ooh ooh

RIFF 3
e------------------------------------|
B------------------------------------|
G-4----------------------2-----------|
D-4----------------------2-----------|
A-2----------------------0-----------|
E------------------------------------|
he gave me a ....
end verse 3
END RIFF 3
e------------------------------------|
B------------------------------------|
G--------------7--------------------------| 
D-7-7-9b-7-9-9---7b-5-7-7-5-7-9-7-5--|
A------------------------------------|
E------------------------------------|

MAIN RIFF x1
MAIN RIFF x2 w/chorus

Во время соло играется:
MAIN RIFF x2
e------------------------------------|
B------------------------------------|
G-2---------------5--7---------------|
D-2---------------5--7---------------|
A-0-0-0-0...0-0-0-3--5-0-0-0...0-0-0-|
E------------------------------------|
MAIN RIFF x2

MAIN RIFF X4

e---------------------------------|
B---------------------------------|
G-2-4-2-4-2-4--2-4-2-4-7-4-2--|
D-2-4-2-4-2-4-------------------|
A---------------------------------|
E---------------------------------|

END

Смотреть Другие гитарные табы группы WASP


Добавить комментарий

Защитный код
Обновить